  0
SECTION
  2
HEADER
  9
$ACADVER
  1
AC1009
  9
$INSBASE
 10
0.0
 20
0.0
 30
0.0
  9
$EXTMIN
 10
50.936280334061387
 20
42.771698739346668
 30
-0.0015258207003583
  9
$EXTMAX
 10
904.11925396588049
 20
822.99119229372877
 30
0.0000000349246037
  9
$LIMMIN
 10
0.0
 20
0.0
  9
$LIMMAX
 10
420.0
 20
297.0
  9
$ORTHOMODE
 70
     0
  9
$REGENMODE
 70
     1
  9
$FILLMODE
 70
     1
  9
$QTEXTMODE
 70
     0
  9
$MIRRTEXT
 70
     0
  9
$DRAGMODE
 70
     2
  9
$LTSCALE
 40
1.0
  9
$OSMODE
 70
    47
  9
$ATTMODE
 70
     1
  9
$TEXTSIZE
 40
2.5
  9
$TRACEWID
 40
1.0
  9
$TEXTSTYLE
  7
STANDARD
  9
$CLAYER
  8
0
  9
$CELTYPE
  6
BYLAYER
  9
$CECOLOR
 62
   256
  9
$DIMSCALE
 40
1.0
  9
$DIMASZ
 40
2.5
  9
$DIMEXO
 40
0.625
  9
$DIMDLI
 40
3.75
  9
$DIMRND
 40
0.0
  9
$DIMDLE
 40
0.0
  9
$DIMEXE
 40
1.25
  9
$DIMTP
 40
0.0
  9
$DIMTM
 40
0.0
  9
$DIMTXT
 40
2.5
  9
$DIMCEN
 40
2.5
  9
$DIMTSZ
 40
0.0
  9
$DIMTOL
 70
     0
  9
$DIMLIM
 70
     0
  9
$DIMTIH
 70
     0
  9
$DIMTOH
 70
     0
  9
$DIMSE1
 70
     0
  9
$DIMSE2
 70
     0
  9
$DIMTAD
 70
     1
  9
$DIMZIN
 70
     8
  9
$DIMBLK
  1

  9
$DIMASO
 70
     1
  9
$DIMSHO
 70
     1
  9
$DIMPOST
  1

  9
$DIMAPOST
  1

  9
$DIMALT
 70
     0
  9
$DIMALTD
 70
     3
  9
$DIMALTF
 40
0.03937007874016
  9
$DIMLFAC
 40
1.0
  9
$DIMTOFL
 70
     1
  9
$DIMTVP
 40
0.0
  9
$DIMTIX
 70
     0
  9
$DIMSOXD
 70
     0
  9
$DIMSAH
 70
     0
  9
$DIMBLK1
  1

  9
$DIMBLK2
  1

  9
$DIMSTYLE
  2
ISO-25
  9
$DIMCLRD
 70
     0
  9
$DIMCLRE
 70
     0
  9
$DIMCLRT
 70
     0
  9
$DIMTFAC
 40
1.0
  9
$DIMGAP
 40
0.625
  9
$LUNITS
 70
     2
  9
$LUPREC
 70
     4
  9
$SKETCHINC
 40
1.0
  9
$FILLETRAD
 40
0.0
  9
$AUNITS
 70
     0
  9
$AUPREC
 70
     0
  9
$MENU
  1
.
  9
$ELEVATION
 40
0.0
  9
$PELEVATION
 40
0.0
  9
$THICKNESS
 40
0.0
  9
$LIMCHECK
 70
     0
  9
$BLIPMODE
 70
     0
  9
$CHAMFERA
 40
0.0
  9
$CHAMFERB
 40
0.0
  9
$SKPOLY
 70
     0
  9
$TDCREATE
 40
2455906.6717952429
  9
$TDUPDATE
 40
2455906.6738952082
  9
$TDINDWG
 40
0.0021073843
  9
$TDUSRTIMER
 40
0.0021073843
  9
$USRTIMER
 70
     1
  9
$ANGBASE
 50
0.0
  9
$ANGDIR
 70
     0
  9
$PDMODE
 70
     0
  9
$PDSIZE
 40
0.0
  9
$PLINEWID
 40
0.0
  9
$COORDS
 70
     1
  9
$SPLFRAME
 70
     0
  9
$SPLINETYPE
 70
     6
  9
$SPLINESEGS
 70
     8
  9
$ATTDIA
 70
     0
  9
$ATTREQ
 70
     1
  9
$HANDLING
 70
     1
  9
$HANDSEED
  5
120
  9
$SURFTAB1
 70
     6
  9
$SURFTAB2
 70
     6
  9
$SURFTYPE
 70
     6
  9
$SURFU
 70
     6
  9
$SURFV
 70
     6
  9
$UCSNAME
  2

  9
$UCSORG
 10
0.0
 20
0.0
 30
0.0
  9
$UCSXDIR
 10
1.0
 20
0.0
 30
0.0
  9
$UCSYDIR
 10
0.0
 20
1.0
 30
0.0
  9
$PUCSNAME
  2

  9
$PUCSORG
 10
0.0
 20
0.0
 30
0.0
  9
$PUCSXDIR
 10
1.0
 20
0.0
 30
0.0
  9
$PUCSYDIR
 10
0.0
 20
1.0
 30
0.0
  9
$USERI1
 70
     0
  9
$USERI2
 70
     0
  9
$USERI3
 70
     0
  9
$USERI4
 70
     0
  9
$USERI5
 70
     0
  9
$USERR1
 40
0.0
  9
$USERR2
 40
0.0
  9
$USERR3
 40
0.0
  9
$USERR4
 40
0.0
  9
$USERR5
 40
0.0
  9
$WORLDVIEW
 70
     1
  9
$SHADEDGE
 70
     3
  9
$SHADEDIF
 70
    70
  9
$TILEMODE
 70
     1
  9
$MAXACTVP
 70
    64
  9
$PLIMCHECK
 70
     0
  9
$PEXTMIN
 10
0.0
 20
0.0
 30
0.0
  9
$PEXTMAX
 10
0.0
 20
0.0
 30
0.0
  9
$PLIMMIN
 10
0.0
 20
0.0
  9
$PLIMMAX
 10
12.0
 20
9.0
  9
$UNITMODE
 70
     0
  9
$VISRETAIN
 70
     1
  9
$PLINEGEN
 70
     0
  9
$PSLTSCALE
 70
     1
  0
ENDSEC
  0
SECTION
  2
TABLES
  0
TABLE
  2
VPORT
 70
     3
  0
VPORT
  2
*ACTIVE
 70
     0
 10
0.0
 20
0.0
 11
1.0
 21
1.0
 12
275.48721279655689
 22
371.40408331112229
 13
0.0
 23
0.0
 14
10.0
 24
10.0
 15
10.0
 25
10.0
 16
0.0
 26
0.0
 36
1.0
 17
0.0
 27
0.0
 37
0.0
 40
1066.6836989299461
 41
1.740112994350282
 42
50.0
 43
0.0
 44
0.0
 50
0.0
 51
0.0
 71
     0
 72
  1000
 73
     1
 74
     3
 75
     0
 76
     0
 77
     0
 78
     0
  0
ENDTAB
  0
TABLE
  2
LTYPE
 70
     1
  0
LTYPE
  2
CONTINUOUS
 70
     0
  3
Solid line
 72
    65
 73
     0
 40
0.0
  0
ENDTAB
  0
TABLE
  2
LAYER
 70
     3
  0
LAYER
  2
0
 70
     0
 62
     7
  6
CONTINUOUS
  0
LAYER
  2
MECANIZADO
 70
     0
 62
     1
  6
CONTINUOUS
  0
LAYER
  2
TEXTO
 70
     0
 62
     6
  6
CONTINUOUS
  0
ENDTAB
  0
TABLE
  2
STYLE
 70
     1
  0
STYLE
  2
STANDARD
 70
     0
 40
0.0
 41
1.0
 50
0.0
 71
     0
 42
2.5
  3
txt
  4

  0
ENDTAB
  0
TABLE
  2
VIEW
 70
     0
  0
ENDTAB
  0
TABLE
  2
UCS
 70
     0
  0
ENDTAB
  0
TABLE
  2
APPID
 70
     1
  0
APPID
  2
ACAD
 70
     0
  0
ENDTAB
  0
TABLE
  2
DIMSTYLE
 70
     1
  0
DIMSTYLE
  2
ISO-25
 70
     0
  3

  4

  5

  6

  7

 40
1.0
 41
2.5
 42
0.625
 43
3.75
 44
1.25
 45
0.0
 46
0.0
 47
0.0
 48
0.0
140
2.5
141
2.5
142
0.0
143
0.03937007874016
144
1.0
145
0.0
146
1.0
147
0.625
 71
     0
 72
     0
 73
     0
 74
     0
 75
     0
 76
     0
 77
     1
 78
     8
170
     0
171
     3
172
     1
173
     0
174
     0
175
     0
176
     0
177
     0
178
     0
  0
ENDTAB
  0
ENDSEC
  0
SECTION
  2
BLOCKS
  0
BLOCK
  8
0
  2
$MODEL_SPACE
 70
     0
 10
0.0
 20
0.0
 30
0.0
  3
$MODEL_SPACE
  1

  0
ENDBLK
  5
21
  8
0
  0
BLOCK
 67
     1
  8
0
  2
$PAPER_SPACE
 70
     0
 10
0.0
 20
0.0
 30
0.0
  3
$PAPER_SPACE
  1

  0
ENDBLK
  5
53
 67
     1
  8
0
  0
ENDSEC
  0
SECTION
  2
ENTITIES
  0
ARC
  5
B6
  8
MECANIZADO
 10
460.82693341841508
 20
917.33037898829195
 30
0.0
 40
205.103903497304
 50
273.71581420753199
 51
293.8179570771469
  0
ARC
  5
B7
  8
MECANIZADO
 10
654.11925396588049
 20
479.44975762438099
 30
0.0
 40
273.54143466934789
 50
66.182042922853114
 51
113.8179570771469
  0
ARC
  5
B8
  8
MECANIZADO
 10
847.41157451334584
 20
917.3303789882915
 30
0.0
 40
205.103903497304
 50
246.1820429228531
 51
266.28418579246801
  0
POLYLINE
  5
B9
  8
MECANIZADO
 66
     1
 10
0.0
 20
0.0
 30
0.0
  0
VERTEX
  5
111
  8
MECANIZADO
 10
474.11925396588038
 20
712.65765133681657
 30
0.0
  0
VERTEX
  5
112
  8
MECANIZADO
 10
474.11925396588038
 20
192.99119229372889
 30
0.0
  0
VERTEX
  5
113
  8
MECANIZADO
 10
834.11925396588038
 20
192.99119229372889
 30
0.0
  0
VERTEX
  5
114
  8
MECANIZADO
 10
834.11925396588038
 20
712.65765133681657
 30
0.0
  0
SEQEND
  5
115
  8
MECANIZADO
  0
POLYLINE
  5
BA
  8
MECANIZADO
 66
     1
 10
0.0
 20
0.0
 30
0.0
 70
     1
  0
VERTEX
  5
116
  8
MECANIZADO
 10
404.11925396588049
 20
822.99119229372877
 30
0.0
  0
VERTEX
  5
117
  8
MECANIZADO
 10
404.11925396588049
 20
122.9911922937289
 30
0.0
  0
VERTEX
  5
118
  8
MECANIZADO
 10
904.11925396588049
 20
122.9911922937289
 30
0.0
  0
VERTEX
  5
119
  8
MECANIZADO
 10
904.11925396588049
 20
822.99119229372877
 30
0.0
  0
SEQEND
  5
11A
  8
MECANIZADO
  0
CIRCLE
  5
BB
  8
MECANIZADO
 10
854.11925396588049
 20
772.99119229372877
 30
0.0
 40
2.5
  0
CIRCLE
  5
BC
  8
MECANIZADO
 10
654.11925396588049
 20
472.99119229372877
 30
0.0
 40
10.0
  0
ARC
  5
BD
  8
MECANIZADO
 10
705.22935569295066
 20
355.7740162930084
 30
0.0
 40
124.2171760007207
 50
70.673344361275056
 51
109.3266556387249
  0
ARC
  5
BE
  8
MECANIZADO
 10
756.99048845189088
 20
397.0331909807681
 30
0.0
 40
124.2171760007207
 50
100.6733443612476
 51
139.32665563872251
  0
ARC
  5
BF
  8
MECANIZADO
 10
781.18735700591048
 20
458.64525077901851
 30
0.0
 40
124.2171760007207
 50
130.67334436126851
 51
169.3266556387255
  0
ARC
  5
C0
  8
MECANIZADO
 10
771.33642996660092
 20
524.10129402079906
 30
0.0
 40
124.2171760007207
 50
160.67334436126421
 51
199.32665563873579
  0
ARC
  5
C1
  8
MECANIZADO
 10
730.0772552788402
 20
575.86242677973848
 30
0.0
 40
124.2171760007207
 50
190.67334436127439
 51
229.32665563873149
  0
ARC
  5
C2
  8
MECANIZADO
 10
668.46519548059223
 20
600.05929533375991
 30
0.0
 40
124.2171760007207
 50
220.6733443612774
 51
259.32665563875241
  0
ARC
  5
C3
  8
MECANIZADO
 10
603.0091522388102
 20
590.20836829444966
 30
0.0
 40
124.2171760007207
 50
250.6733443612751
 51
289.32665563872501
  0
ARC
  5
C4
  8
MECANIZADO
 10
551.24801947986987
 20
548.94919360668962
 30
0.0
 40
124.2171760007207
 50
280.67334436124759
 51
319.32665563872251
  0
ARC
  5
C5
  8
MECANIZADO
 10
527.05115092585027
 20
487.33713380843972
 30
0.0
 40
124.2171760007207
 50
310.67334436126839
 51
349.32665563872553
  0
ARC
  5
C6
  8
MECANIZADO
 10
536.90207796515995
 20
421.88109056665849
 30
0.0
 40
124.2171760007207
 50
340.6733443612643
 51
19.326655638735762
  0
ARC
  5
C7
  8
MECANIZADO
 10
578.16125265292055
 20
370.11995780771878
 30
0.0
 40
124.2171760007207
 50
10.67334436127449
 51
49.326655638731502
  0
ARC
  5
C8
  8
MECANIZADO
 10
639.77331245117045
 20
345.92308925369792
 30
0.0
 40
124.2171760007207
 50
40.673344361277472
 51
79.326655638752413
  0
ARC
  5
C9
  8
MECANIZADO
 10
704.23647927040827
 20
486.4200623409659
 30
0.0
 40
44.192706635963987
 50
342.30976275091581
 51
47.690237249063927
  0
ARC
  5
CA
  8
MECANIZADO
 10
690.80760922317131
 20
509.67954755101971
 30
0.0
 40
44.192706635963987
 50
12.309762750901969
 51
77.690237249095475
  0
ARC
  5
CB
  8
MECANIZADO
 10
667.54812401311744
 20
523.10841759825632
 30
0.0
 40
44.192706635963987
 50
42.309762750881028
 51
107.6902372490709
  0
ARC
  5
CC
  8
MECANIZADO
 10
640.69038391864331
 20
523.10841759825632
 30
0.0
 40
44.192706635963987
 50
72.309762750929053
 51
137.69023724911889
  0
ARC
  5
CD
  8
MECANIZADO
 10
617.43089870858955
 20
509.6795475510192
 30
0.0
 40
44.192706635963987
 50
102.3097627509045
 51
167.690237249098
  0
ARC
  5
CE
  8
MECANIZADO
 10
604.00202866135248
 20
486.42006234096539
 30
0.0
 40
44.192706635963987
 50
132.30976275093599
 51
197.69023724908379
  0
ARC
  5
CF
  8
MECANIZADO
 10
604.00202866135248
 20
459.56232224649222
 30
0.0
 40
44.192706635963987
 50
162.3097627509157
 51
227.6902372490639
  0
ARC
  5
D0
  8
MECANIZADO
 10
617.43089870858955
 20
436.30283703643801
 30
0.0
 40
44.192706635963987
 50
192.30976275090191
 51
257.69023724909539
  0
ARC
  5
D1
  8
MECANIZADO
 10
640.69038391864524
 20
422.8739669892019
 30
0.0
 40
44.192706635963987
 50
222.30976275088099
 51
287.690237249071
  0
ARC
  5
D2
  8
MECANIZADO
 10
667.54812401311744
 20
422.87396698920139
 30
0.0
 40
44.192706635963987
 50
252.309762750929
 51
317.69023724911898
  0
ARC
  5
D3
  8
MECANIZADO
 10
690.80760922317131
 20
436.30283703643801
 30
0.0
 40
44.192706635963987
 50
282.30976275090461
 51
347.69023724909812
  0
ARC
  5
D4
  8
MECANIZADO
 10
704.23647927040827
 20
459.56232224649222
 30
0.0
 40
44.192706635963987
 50
312.30976275093599
 51
17.690237249084198
  0
POLYLINE
  5
F8
  8
MECANIZADO
 66
     1
 10
0.0
 20
0.0
 30
0.0
 70
     1
  0
VERTEX
  5
11B
  8
MECANIZADO
 10
405.11925396588049
 20
821.99119229372889
 30
0.0
  0
VERTEX
  5
11C
  8
MECANIZADO
 10
405.11925396588049
 20
123.9911922937289
 30
0.0
  0
VERTEX
  5
11D
  8
MECANIZADO
 10
903.11925396588049
 20
123.9911922937289
 30
0.0
  0
VERTEX
  5
11E
  8
MECANIZADO
 10
903.11925396588049
 20
821.99119229372889
 30
0.0
  0
SEQEND
  5
11F
  8
MECANIZADO
  0
ENDSEC
  0
EOF
